ISO-10303-21;
HEADER;
FILE_DESCRIPTION (( 'STEP AP214' ),
    '1' );
FILE_NAME ('am-1696 0.194 ID 0.375 OD 1.000 Long Nylon Spacer.STEP',
    '2023-07-26T19:38:39',
    ( '' ),
    ( '' ),
    'SwSTEP 2.0',
    'SolidWorks 2022',
    '' );
FILE_SCHEMA (( 'AUTOMOTIVE_DESIGN' ));
ENDSEC;

DATA;
#1 = EDGE_LOOP ( 'NONE', ( #27, #158, #111, #137 ) ) ;
#2 = VECTOR ( 'NONE', #145, 39.37007874015748143 ) ;
#3 = SURFACE_STYLE_USAGE ( .BOTH. , #85 ) ;
#4 = EDGE_LOOP ( 'NONE', ( #7, #185, #154, #75 ) ) ;
#5 = PRODUCT ( 'am-1696 0.194 ID 0.375 OD 1.000 Long Nylon Spacer', 'am-1696 0.194 ID 0.375 OD 1.000 Long Nylon Spacer', '', ( #74 ) ) ;
#6 = LENGTH_MEASURE_WITH_UNIT ( LENGTH_MEASURE( 0.02539999999999999897 ), #167 );
#7 = ORIENTED_EDGE ( 'NONE', *, *, #155, .F. ) ;
#8 = EDGE_CURVE ( 'NONE', #138, #72, #48, .T. ) ;
#9 = DIRECTION ( 'NONE',  ( -0.000000000000000000, -1.000000000000000000, -0.000000000000000000 ) ) ;
#10 = ADVANCED_BREP_SHAPE_REPRESENTATION ( 'am-1696 0.194 ID 0.375 OD 1.000 Long Nylon Spacer', ( #161, #171 ), #62 ) ;
#11 = CIRCLE ( 'NONE', #214, 0.09600000000000001588 ) ;
#12 = ADVANCED_FACE ( 'NONE', ( #175 ), #93, .F. ) ;
#13 = FACE_BOUND ( 'NONE', #107, .T. ) ;
#14 = FACE_OUTER_BOUND ( 'NONE', #55, .T. ) ;
#15 = DIRECTION ( 'NONE',  ( -0.000000000000000000, -1.000000000000000000, -0.000000000000000000 ) ) ;
#16 = ADVANCED_FACE ( 'NONE', ( #215, #115 ), #80, .F. ) ;
#17 = SURFACE_STYLE_FILL_AREA ( #22 ) ;
#18 = PRODUCT_DEFINITION_CONTEXT ( 'detailed design', #152, 'design' ) ;
#19 = CARTESIAN_POINT ( 'NONE',  ( 1.175660927181459249E-17, 1.000000000000000000, 0.09600000000000001588 ) ) ;
#20 = EDGE_CURVE ( 'NONE', #37, #39, #140, .T. ) ;
#21 =( CONVERSION_BASED_UNIT ( 'INCH', #146 ) LENGTH_UNIT ( ) NAMED_UNIT ( #220 ) );
#22 = FILL_AREA_STYLE ('',( #165 ) ) ;
#23 = ORIENTED_EDGE ( 'NONE', *, *, #120, .F. ) ;
#24 = ORIENTED_EDGE ( 'NONE', *, *, #64, .F. ) ;
#25 = ORIENTED_EDGE ( 'NONE', *, *, #170, .F. ) ;
#26 = STYLED_ITEM ( 'NONE', ( #121 ), #161 ) ;
#27 = ORIENTED_EDGE ( 'NONE', *, *, #193, .F. ) ;
#28 = LINE ( 'NONE', #97, #219 ) ;
#29 = DIRECTION ( 'NONE',  ( -0.000000000000000000, -1.000000000000000000, -0.000000000000000000 ) ) ;
#30 = DIRECTION ( 'NONE',  ( 0.000000000000000000, 0.000000000000000000, -1.000000000000000000 ) ) ;
#31 = CARTESIAN_POINT ( 'NONE',  ( 0.000000000000000000, 1.000000000000000000, -0.09600000000000001588 ) ) ;
#32 = DIRECTION ( 'NONE',  ( 0.000000000000000000, 0.000000000000000000, 1.000000000000000000 ) ) ;
#33 =( LENGTH_UNIT ( ) NAMED_UNIT ( * ) SI_UNIT ( $, .METRE. ) );
#34 = CARTESIAN_POINT ( 'NONE',  ( 0.000000000000000000, 1.000000000000000000, -0.1875000000000000278 ) ) ;
#35 = EDGE_CURVE ( 'NONE', #210, #206, #28, .T. ) ;
#36 = STYLED_ITEM ( 'NONE', ( #104 ), #10 ) ;
#37 = VERTEX_POINT ( 'NONE', #211 ) ;
#38 = DIRECTION ( 'NONE',  ( 1.000000000000000000, 0.000000000000000000, 0.000000000000000000 ) ) ;
#39 = VERTEX_POINT ( 'NONE', #78 ) ;
#40 = DIRECTION ( 'NONE',  ( 0.000000000000000000, 1.000000000000000000, 0.000000000000000000 ) ) ;
#41 = CARTESIAN_POINT ( 'NONE',  ( 0.000000000000000000, 1.000000000000000000, 0.000000000000000000 ) ) ;
#42 = AXIS2_PLACEMENT_3D ( 'NONE', #98, #143, #179 ) ;
#43 = DIRECTION ( 'NONE',  ( 0.000000000000000000, 0.000000000000000000, -1.000000000000000000 ) ) ;
#44 = CARTESIAN_POINT ( 'NONE',  ( 0.000000000000000000, 0.000000000000000000, 0.000000000000000000 ) ) ;
#45 = ADVANCED_FACE ( 'NONE', ( #194 ), #139, .T. ) ;
#46 = CARTESIAN_POINT ( 'NONE',  ( 0.000000000000000000, 1.000000000000000000, 0.000000000000000000 ) ) ;
#47 = AXIS2_PLACEMENT_3D ( 'NONE', #41, #192, #43 ) ;
#48 = CIRCLE ( 'NONE', #174, 0.09600000000000001588 ) ;
#49 = CARTESIAN_POINT ( 'NONE',  ( 2.296212748401287726E-17, 0.000000000000000000, 0.1875000000000000278 ) ) ;
#50 = CARTESIAN_POINT ( 'NONE',  ( 2.296212748401287726E-17, 1.000000000000000000, 0.1875000000000000278 ) ) ;
#51 = COLOUR_RGB ( '',1.000000000000000000, 1.000000000000000000, 1.000000000000000000 ) ;
#52 =( CONVERSION_BASED_UNIT ( 'INCH', #202 ) LENGTH_UNIT ( ) NAMED_UNIT ( #150 ) );
#53 = DIRECTION ( 'NONE',  ( 0.000000000000000000, 1.000000000000000000, 0.000000000000000000 ) ) ;
#54 = AXIS2_PLACEMENT_3D ( 'NONE', #178, #15, #65 ) ;
#55 = EDGE_LOOP ( 'NONE', ( #25, #134, #126, #124 ) ) ;
#56 = EDGE_LOOP ( 'NONE', ( #77, #151 ) ) ;
#57 = PRODUCT_DEFINITION ( 'UNKNOWN', '', #216, #18 ) ;
#58 = DIRECTION ( 'NONE',  ( -0.000000000000000000, -1.000000000000000000, -0.000000000000000000 ) ) ;
#59 = DIRECTION ( 'NONE',  ( 0.000000000000000000, 1.000000000000000000, 0.000000000000000000 ) ) ;
#60 = PRODUCT_DEFINITION_SHAPE ( 'NONE', 'NONE',  #57 ) ;
#61 = CARTESIAN_POINT ( 'NONE',  ( 0.000000000000000000, 1.000000000000000000, 0.000000000000000000 ) ) ;
#62 =( GEOMETRIC_REPRESENTATION_CONTEXT ( 3 ) GLOBAL_UNCERTAINTY_ASSIGNED_CONTEXT ( ( #148 ) ) GLOBAL_UNIT_ASSIGNED_CONTEXT ( ( #21, #67, #68 ) ) REPRESENTATION_CONTEXT ( 'NONE', 'WORKASPACE' ) );
#63 = CARTESIAN_POINT ( 'NONE',  ( 0.000000000000000000, 1.000000000000000000, 0.000000000000000000 ) ) ;
#64 = EDGE_CURVE ( 'NONE', #72, #138, #11, .T. ) ;
#65 = DIRECTION ( 'NONE',  ( 0.000000000000000000, 0.000000000000000000, -1.000000000000000000 ) ) ;
#66 = ADVANCED_FACE ( 'NONE', ( #14 ), #164, .F. ) ;
#67 =( NAMED_UNIT ( * ) PLANE_ANGLE_UNIT ( ) SI_UNIT ( $, .RADIAN. ) );
#68 =( NAMED_UNIT ( * ) SI_UNIT ( $, .STERADIAN. ) SOLID_ANGLE_UNIT ( ) );
#69 = SURFACE_STYLE_FILL_AREA ( #133 ) ;
#70 =( NAMED_UNIT ( * ) PLANE_ANGLE_UNIT ( ) SI_UNIT ( $, .RADIAN. ) );
#71 = ORIENTED_EDGE ( 'NONE', *, *, #155, .T. ) ;
#72 = VERTEX_POINT ( 'NONE', #31 ) ;
#73 = AXIS2_PLACEMENT_3D ( 'NONE', #61, #173, #160 ) ;
#74 = PRODUCT_CONTEXT ( 'NONE', #84, 'mechanical' ) ;
#75 = ORIENTED_EDGE ( 'NONE', *, *, #35, .F. ) ;
#76 =( NAMED_UNIT ( * ) SI_UNIT ( $, .STERADIAN. ) SOLID_ANGLE_UNIT ( ) );
#77 = ORIENTED_EDGE ( 'NONE', *, *, #120, .T. ) ;
#78 = CARTESIAN_POINT ( 'NONE',  ( 0.000000000000000000, 0.000000000000000000, -0.09600000000000001588 ) ) ;
#79 = AXIS2_PLACEMENT_3D ( 'NONE', #144, #177, #32 ) ;
#80 = PLANE ( 'NONE',  #181 ) ;
#81 = CARTESIAN_POINT ( 'NONE',  ( 0.000000000000000000, 1.000000000000000000, -0.09600000000000001588 ) ) ;
#82 = PLANE ( 'NONE',  #73 ) ;
#83 = CARTESIAN_POINT ( 'NONE',  ( 0.000000000000000000, 0.000000000000000000, 0.000000000000000000 ) ) ;
#84 = APPLICATION_CONTEXT ( 'automotive_design' ) ;
#85 = SURFACE_SIDE_STYLE ('',( #17 ) ) ;
#86 = ADVANCED_FACE ( 'NONE', ( #217, #13 ), #82, .T. ) ;
#87 = DIRECTION ( 'NONE',  ( 0.000000000000000000, 1.000000000000000000, 0.000000000000000000 ) ) ;
#88 = CIRCLE ( 'NONE', #42, 0.1875000000000000278 ) ;
#89 = SURFACE_SIDE_STYLE ('',( #69 ) ) ;
#90 = AXIS2_PLACEMENT_3D ( 'NONE', #63, #58, #30 ) ;
#91 = ORIENTED_EDGE ( 'NONE', *, *, #103, .F. ) ;
#92 = EDGE_LOOP ( 'NONE', ( #204, #135 ) ) ;
#93 = CYLINDRICAL_SURFACE ( 'NONE', #96, 0.09600000000000001588 ) ;
#94 = AXIS2_PLACEMENT_3D ( 'NONE', #142, #212, #99 ) ;
#95 =( GEOMETRIC_REPRESENTATION_CONTEXT ( 3 ) GLOBAL_UNCERTAINTY_ASSIGNED_CONTEXT ( ( #200 ) ) GLOBAL_UNIT_ASSIGNED_CONTEXT ( ( #123, #169, #76 ) ) REPRESENTATION_CONTEXT ( 'NONE', 'WORKASPACE' ) );
#96 = AXIS2_PLACEMENT_3D ( 'NONE', #159, #29, #163 ) ;
#97 = CARTESIAN_POINT ( 'NONE',  ( 0.000000000000000000, 1.000000000000000000, -0.1875000000000000278 ) ) ;
#98 = CARTESIAN_POINT ( 'NONE',  ( 0.000000000000000000, 1.000000000000000000, 0.000000000000000000 ) ) ;
#99 = DIRECTION ( 'NONE',  ( 0.000000000000000000, 0.000000000000000000, 1.000000000000000000 ) ) ;
#100 = UNCERTAINTY_MEASURE_WITH_UNIT (LENGTH_MEASURE( 1.000000000000000082E-05 ), #52, 'distance_accuracy_value', 'NONE');
#101 = FILL_AREA_STYLE_COLOUR ( '', #51 ) ;
#102 = CARTESIAN_POINT ( 'NONE',  ( 0.000000000000000000, 0.000000000000000000, 0.000000000000000000 ) ) ;
#103 = EDGE_CURVE ( 'NONE', #72, #39, #130, .T. ) ;
#104 = PRESENTATION_STYLE_ASSIGNMENT (( #3 ) ) ;
#105 = VECTOR ( 'NONE', #221, 39.37007874015748143 ) ;
#106 = PRESENTATION_LAYER_ASSIGNMENT (  '', '', ( #36 ) ) ;
#107 = EDGE_LOOP ( 'NONE', ( #24, #157 ) ) ;
#108 =( GEOMETRIC_REPRESENTATION_CONTEXT ( 3 ) GLOBAL_UNCERTAINTY_ASSIGNED_CONTEXT ( ( #100 ) ) GLOBAL_UNIT_ASSIGNED_CONTEXT ( ( #52, #70, #149 ) ) REPRESENTATION_CONTEXT ( 'NONE', 'WORKASPACE' ) );
#109 = APPLICATION_PROTOCOL_DEFINITION ( 'draft international standard', 'automotive_design', 1998, #84 ) ;
#110 = EDGE_LOOP ( 'NONE', ( #223, #71 ) ) ;
#111 = ORIENTED_EDGE ( 'NONE', *, *, #35, .T. ) ;
#112 = DIRECTION ( 'NONE',  ( 0.000000000000000000, 1.000000000000000000, 0.000000000000000000 ) ) ;
#113 = DIRECTION ( 'NONE',  ( 0.000000000000000000, -0.000000000000000000, 1.000000000000000000 ) ) ;
#114 = CIRCLE ( 'NONE', #218, 0.1875000000000000278 ) ;
#115 = FACE_BOUND ( 'NONE', #56, .T. ) ;
#116 = FACE_OUTER_BOUND ( 'NONE', #1, .T. ) ;
#117 = MECHANICAL_DESIGN_GEOMETRIC_PRESENTATION_REPRESENTATION (  '', ( #26 ), #108 ) ;
#118 = LINE ( 'NONE', #180, #105 ) ;
#119 =( LENGTH_UNIT ( ) NAMED_UNIT ( * ) SI_UNIT ( $, .METRE. ) );
#120 = EDGE_CURVE ( 'NONE', #39, #37, #191, .T. ) ;
#121 = PRESENTATION_STYLE_ASSIGNMENT (( #201 ) ) ;
#122 = ORIENTED_EDGE ( 'NONE', *, *, #64, .T. ) ;
#123 =( CONVERSION_BASED_UNIT ( 'INCH', #6 ) LENGTH_UNIT ( ) NAMED_UNIT ( #207 ) );
#124 = ORIENTED_EDGE ( 'NONE', *, *, #20, .F. ) ;
#125 = DIRECTION ( 'NONE',  ( 0.000000000000000000, 0.000000000000000000, 1.000000000000000000 ) ) ;
#126 = ORIENTED_EDGE ( 'NONE', *, *, #103, .T. ) ;
#127 = DIRECTION ( 'NONE',  ( 0.000000000000000000, 0.000000000000000000, 1.000000000000000000 ) ) ;
#128 = DIRECTION ( 'NONE',  ( 0.000000000000000000, 0.000000000000000000, 1.000000000000000000 ) ) ;
#129 = CARTESIAN_POINT ( 'NONE',  ( 0.000000000000000000, 1.000000000000000000, 0.000000000000000000 ) ) ;
#130 = LINE ( 'NONE', #81, #176 ) ;
#131 = COLOUR_RGB ( '',1.000000000000000000, 1.000000000000000000, 1.000000000000000000 ) ;
#132 = EDGE_CURVE ( 'NONE', #209, #206, #184, .T. ) ;
#133 = FILL_AREA_STYLE ('',( #101 ) ) ;
#134 = ORIENTED_EDGE ( 'NONE', *, *, #8, .T. ) ;
#135 = ORIENTED_EDGE ( 'NONE', *, *, #132, .F. ) ;
#136 = APPLICATION_PROTOCOL_DEFINITION ( 'draft international standard', 'automotive_design', 1998, #152 ) ;
#137 = ORIENTED_EDGE ( 'NONE', *, *, #186, .T. ) ;
#138 = VERTEX_POINT ( 'NONE', #195 ) ;
#139 = CYLINDRICAL_SURFACE ( 'NONE', #90, 0.1875000000000000278 ) ;
#140 = CIRCLE ( 'NONE', #79, 0.09600000000000001588 ) ;
#141 = EDGE_CURVE ( 'NONE', #210, #188, #114, .T. ) ;
#142 = CARTESIAN_POINT ( 'NONE',  ( 0.000000000000000000, 0.000000000000000000, 0.000000000000000000 ) ) ;
#143 = DIRECTION ( 'NONE',  ( 0.000000000000000000, 1.000000000000000000, 0.000000000000000000 ) ) ;
#144 = CARTESIAN_POINT ( 'NONE',  ( 0.000000000000000000, 0.000000000000000000, 0.000000000000000000 ) ) ;
#145 = DIRECTION ( 'NONE',  ( -0.000000000000000000, -1.000000000000000000, -0.000000000000000000 ) ) ;
#146 = LENGTH_MEASURE_WITH_UNIT ( LENGTH_MEASURE( 0.02539999999999999897 ), #33 );
#147 = ADVANCED_FACE ( 'NONE', ( #116 ), #189, .T. ) ;
#148 = UNCERTAINTY_MEASURE_WITH_UNIT (LENGTH_MEASURE( 1.000000000000000082E-05 ), #21, 'distance_accuracy_value', 'NONE');
#149 =( NAMED_UNIT ( * ) SI_UNIT ( $, .STERADIAN. ) SOLID_ANGLE_UNIT ( ) );
#150 = DIMENSIONAL_EXPONENTS ( 1.000000000000000000, 0.000000000000000000, 0.000000000000000000, 0.000000000000000000, 0.000000000000000000, 0.000000000000000000, 0.000000000000000000 ) ;
#151 = ORIENTED_EDGE ( 'NONE', *, *, #20, .T. ) ;
#152 = APPLICATION_CONTEXT ( 'automotive_design' ) ;
#153 = CARTESIAN_POINT ( 'NONE',  ( 0.000000000000000000, 0.000000000000000000, 0.000000000000000000 ) ) ;
#154 = ORIENTED_EDGE ( 'NONE', *, *, #132, .T. ) ;
#155 = EDGE_CURVE ( 'NONE', #188, #210, #88, .T. ) ;
#156 = MECHANICAL_DESIGN_GEOMETRIC_PRESENTATION_REPRESENTATION (  '', ( #36 ), #95 ) ;
#157 = ORIENTED_EDGE ( 'NONE', *, *, #8, .F. ) ;
#158 = ORIENTED_EDGE ( 'NONE', *, *, #141, .F. ) ;
#159 = CARTESIAN_POINT ( 'NONE',  ( 0.000000000000000000, 1.000000000000000000, 0.000000000000000000 ) ) ;
#160 = DIRECTION ( 'NONE',  ( 0.000000000000000000, -0.000000000000000000, 1.000000000000000000 ) ) ;
#161 = MANIFOLD_SOLID_BREP ( 'Boss-Extrude1', #166 ) ;
#162 = DIRECTION ( 'NONE',  ( 0.000000000000000000, 0.000000000000000000, 1.000000000000000000 ) ) ;
#163 = DIRECTION ( 'NONE',  ( 0.000000000000000000, 0.000000000000000000, -1.000000000000000000 ) ) ;
#164 = CYLINDRICAL_SURFACE ( 'NONE', #54, 0.09600000000000001588 ) ;
#165 = FILL_AREA_STYLE_COLOUR ( '', #131 ) ;
#166 = CLOSED_SHELL ( 'NONE', ( #12, #45, #86, #16, #147, #66 ) ) ;
#167 =( LENGTH_UNIT ( ) NAMED_UNIT ( * ) SI_UNIT ( $, .METRE. ) );
#168 = AXIS2_PLACEMENT_3D ( 'NONE', #102, #87, #199 ) ;
#169 =( NAMED_UNIT ( * ) PLANE_ANGLE_UNIT ( ) SI_UNIT ( $, .RADIAN. ) );
#170 = EDGE_CURVE ( 'NONE', #138, #37, #198, .T. ) ;
#171 = AXIS2_PLACEMENT_3D ( 'NONE', #153, #125, #38 ) ;
#172 = ORIENTED_EDGE ( 'NONE', *, *, #170, .T. ) ;
#173 = DIRECTION ( 'NONE',  ( 0.000000000000000000, 1.000000000000000000, 0.000000000000000000 ) ) ;
#174 = AXIS2_PLACEMENT_3D ( 'NONE', #203, #53, #183 ) ;
#175 = FACE_OUTER_BOUND ( 'NONE', #187, .T. ) ;
#176 = VECTOR ( 'NONE', #213, 39.37007874015748143 ) ;
#177 = DIRECTION ( 'NONE',  ( 0.000000000000000000, 1.000000000000000000, 0.000000000000000000 ) ) ;
#178 = CARTESIAN_POINT ( 'NONE',  ( 0.000000000000000000, 1.000000000000000000, 0.000000000000000000 ) ) ;
#179 = DIRECTION ( 'NONE',  ( 0.000000000000000000, 0.000000000000000000, 1.000000000000000000 ) ) ;
#180 = CARTESIAN_POINT ( 'NONE',  ( 2.296212748401287726E-17, 1.000000000000000000, 0.1875000000000000278 ) ) ;
#181 = AXIS2_PLACEMENT_3D ( 'NONE', #44, #190, #113 ) ;
#182 = CARTESIAN_POINT ( 'NONE',  ( 0.000000000000000000, 0.000000000000000000, -0.1875000000000000278 ) ) ;
#183 = DIRECTION ( 'NONE',  ( 0.000000000000000000, 0.000000000000000000, 1.000000000000000000 ) ) ;
#184 = CIRCLE ( 'NONE', #197, 0.1875000000000000278 ) ;
#185 = ORIENTED_EDGE ( 'NONE', *, *, #193, .T. ) ;
#186 = EDGE_CURVE ( 'NONE', #206, #209, #196, .T. ) ;
#187 = EDGE_LOOP ( 'NONE', ( #122, #172, #23, #91 ) ) ;
#188 = VERTEX_POINT ( 'NONE', #50 ) ;
#189 = CYLINDRICAL_SURFACE ( 'NONE', #47, 0.1875000000000000278 ) ;
#190 = DIRECTION ( 'NONE',  ( 0.000000000000000000, 1.000000000000000000, 0.000000000000000000 ) ) ;
#191 = CIRCLE ( 'NONE', #94, 0.09600000000000001588 ) ;
#192 = DIRECTION ( 'NONE',  ( -0.000000000000000000, -1.000000000000000000, -0.000000000000000000 ) ) ;
#193 = EDGE_CURVE ( 'NONE', #188, #209, #118, .T. ) ;
#194 = FACE_OUTER_BOUND ( 'NONE', #4, .T. ) ;
#195 = CARTESIAN_POINT ( 'NONE',  ( 1.175660927181459249E-17, 1.000000000000000000, 0.09600000000000001588 ) ) ;
#196 = CIRCLE ( 'NONE', #168, 0.1875000000000000278 ) ;
#197 = AXIS2_PLACEMENT_3D ( 'NONE', #83, #59, #127 ) ;
#198 = LINE ( 'NONE', #19, #2 ) ;
#199 = DIRECTION ( 'NONE',  ( 0.000000000000000000, 0.000000000000000000, 1.000000000000000000 ) ) ;
#200 = UNCERTAINTY_MEASURE_WITH_UNIT (LENGTH_MEASURE( 1.000000000000000082E-05 ), #123, 'distance_accuracy_value', 'NONE');
#201 = SURFACE_STYLE_USAGE ( .BOTH. , #89 ) ;
#202 = LENGTH_MEASURE_WITH_UNIT ( LENGTH_MEASURE( 0.02539999999999999897 ), #119 );
#203 = CARTESIAN_POINT ( 'NONE',  ( 0.000000000000000000, 1.000000000000000000, 0.000000000000000000 ) ) ;
#204 = ORIENTED_EDGE ( 'NONE', *, *, #186, .F. ) ;
#205 = PRESENTATION_LAYER_ASSIGNMENT (  '', '', ( #26 ) ) ;
#206 = VERTEX_POINT ( 'NONE', #182 ) ;
#207 = DIMENSIONAL_EXPONENTS ( 1.000000000000000000, 0.000000000000000000, 0.000000000000000000, 0.000000000000000000, 0.000000000000000000, 0.000000000000000000, 0.000000000000000000 ) ;
#208 = SHAPE_DEFINITION_REPRESENTATION ( #60, #10 ) ;
#209 = VERTEX_POINT ( 'NONE', #49 ) ;
#210 = VERTEX_POINT ( 'NONE', #34 ) ;
#211 = CARTESIAN_POINT ( 'NONE',  ( 1.175660927181459249E-17, 0.000000000000000000, 0.09600000000000001588 ) ) ;
#212 = DIRECTION ( 'NONE',  ( 0.000000000000000000, 1.000000000000000000, 0.000000000000000000 ) ) ;
#213 = DIRECTION ( 'NONE',  ( -0.000000000000000000, -1.000000000000000000, -0.000000000000000000 ) ) ;
#214 = AXIS2_PLACEMENT_3D ( 'NONE', #129, #40, #162 ) ;
#215 = FACE_OUTER_BOUND ( 'NONE', #92, .T. ) ;
#216 = PRODUCT_DEFINITION_FORMATION_WITH_SPECIFIED_SOURCE ( 'ANY', '', #5, .NOT_KNOWN. ) ;
#217 = FACE_OUTER_BOUND ( 'NONE', #110, .T. ) ;
#218 = AXIS2_PLACEMENT_3D ( 'NONE', #46, #112, #128 ) ;
#219 = VECTOR ( 'NONE', #9, 39.37007874015748143 ) ;
#220 = DIMENSIONAL_EXPONENTS ( 1.000000000000000000, 0.000000000000000000, 0.000000000000000000, 0.000000000000000000, 0.000000000000000000, 0.000000000000000000, 0.000000000000000000 ) ;
#221 = DIRECTION ( 'NONE',  ( -0.000000000000000000, -1.000000000000000000, -0.000000000000000000 ) ) ;
#222 = PRODUCT_RELATED_PRODUCT_CATEGORY ( 'part', '', ( #5 ) ) ;
#223 = ORIENTED_EDGE ( 'NONE', *, *, #141, .T. ) ;
ENDSEC;
END-ISO-10303-21;
